Jasa Desain Website Murah
Jasa buat web untuk bisnis online, web pribadi, web portal, atau web apa saja tersedia di Ahli Webs

Chord Gitar Blink 182 - please take me home

blink 182- please take me home

By :Ridwan
Email :redonewest@yahoo.com

BLINK-182 T.O.Y.P.A.J. 2001



CHORD CHART:
E F# B G# C# A# D# Eii
E|--------------------------------------------------------------------
B|--------------------------------------------------------------------
G|----------------------4---------------6---------------8-------9-----
D|------2-------4-------4-------6-------6-------8-------8-------9-----
A|------2-------4-------2-------6-------4-------8-------6-------7-----
E|------0-------2---------------4---------------6---------------------


~ = let ring
x = palm mute



Intro:
E|--------------------------------------------------------------------
B|--------------------------------------------------------------------
G|--------------------------------------------------------------------
D|--111111111111111111111111----------11111111111111111111111---------
A|-1-------------------------22222222------------------------22222222-
E|--------------------------------------------------------------------


Verse (Palm muted):
B C# G# E
Oh no, it happened again
B C# G# E
She's cool, she's hot, she's my friend
B C# G# E
I'd drive for hours, it's so
B C# G# E
You leave me nowhere to go


Chorus 1:
E
She's unstoppable
B
Unpredictable
G# F#
I'm so jaded, calculated,
E A# F#
Wrong


Chorus 2:
B A#
Please take me home
G# E
Too late, it's gone
B A#
I bet you're sad
G# E
This is the best time we ever had


Verse (Palm muted):
D# B
Buy hope, hope that it lasts
D# B
Give in, forget the past
D# B
Be strong when things fall appart
D# B
Honest, this breaks my heart


-- Chorus 1 --


-- Chorus 2 -- X 2


Riff 1: (Clean) X 2
E|--------------------------------------------------------------------
B|--------------------------------------------------------------------
G|--------------------------------------------------------------------
D|-4-4--2-2--1-1-2-2--------------------------------------------------
A|--------------------------------------------------------------------
E|--------------------------------------------------------------------


-- Riff 1 -- (Clean)
Why did we have to go date ?
It's too easy to complicate


xBx xC#x xD#x xEiix
Be strong when things fall apart
xBx xC#x xD#x xEiix
Honest, this breaks my heart


Bridge: B A# D# C# / B / C#
B A# D# C#
A# B
A# B
F# (Palm muted)


-- Chorus 2 -- X 2

End on E

Ditulis Oleh :

Ridwan Ahli Webs Anda sedang membaca artikel tentang Chord Gitar Blink 182 - please take me home di Redonewest, Sobat diperbolehkan mengcopas atau menyebar-luaskan artikel ini, tapi jangan lupa untuk meletakkan link Ahli Webs atau link dibawah sebagai sumbernya.
Description: Chord Gitar Blink 182 - please take me home Rating: 4.5 Reviewer: Ridwan AhliWebsCom ItemReviewed: Chord Gitar Blink 182 - please take me home
Posted by: Ahli Webs
Ahli Webs Updated at: 17.32

0 komentar

Posting Komentar

Silahkan Beri Komentar..!!