Jasa Desain Website Murah
Jasa buat web untuk bisnis online, web pribadi, web portal, atau web apa saja tersedia di Ahli Webs

Chord Gitar Blink 182 -give me a good reason

blink 182 give me a good reason

mail :redonewest@yahoo.com


CHORD CHART:
E B G# C# A
E|--------------------------------------------------------------------
B|--------------------------------------------------------------------
G|--------------4---------------6-------------------------------------
D|------2-------4-------6-------6-------7-----------------------------
A|------2-------2-------6-------4-------7-----------------------------
E|------0---------------4---------------5-----------------------------


~ = let ring
x = palm mute



Intro:
E|--------------------------------------------------------------------
B|--------------------------------------------------------------------
G|---1----1-----------------1----1----------------1----1--1-----------
D|--2----2-2---42---42-2---2----2-2---42---42-2----2----2-----22-22-2-
A|-2----2-----2----2--2---2----2-----2----2--2---4----4--4---0--0--0--
E|--------------------------------------------------------------------
[________________________________________________________________]
Clean

E|--------------------------------------------------------------------
B|--------------------------------------------------------------------
G|--1----1--1------------4444-----------------------------------------
D|---2----2-----44-44----4444-----------------------------------------
A|-4----4--4---2--2--2---2222-----------------------------------------
E|--------------------------------------------------------------------
[__________________]
Clean


Verse: (palm muted)
E B
Mom and Dad they quite don\'t understand it
E B
All the kids they laugh as if they planned it
C# A
Why do girls want to pierce their nose
C# B
And walk around in torn pantyhose, oh yeah


Riff 1:
E|--------------------------------------------------------------------
B|--------------------------------------------------------------------
G|--------1-----------------1-----------------------------------------
D|-2222------1-2-2---2222------1-2-2----------------------------------
A|-2222--------------2222---------------------------------------------
E|-0000--------------0000---------------------------------------------


Verse: (palm muted)
E B
I like the ones who say they listen to the punk rock
E B
I like the kids who fight against how they were brought up
C# A
They hate the trends and think it\'s fucked to care
C# B
It\'s cool when they piss people off with what they wear, oh yeah


-- Riff 1 --


Chorus:
E G# B
So give me one good reason
E G# B A
Why we need to be like them
E G# B
Kids will have fun and offend
E G# B A
They don\'t want to and don\'t fit in


-- Intro --


Verse: (palm muted)
E B
Hate the jocks, the preps, the hippie-fuckin\' scumbags
E B
Heavy-metallers with their awful, pussy hair bands
C# A
Counting seconds until we can get away
C# B
Ditchin\' school almost every single day, oh yeah !


-- Riff 1 -- X 4


-- Chorus --


Riff 2:
E|--------------------------------------------------------------------
B|--------------------------------------------------------------------
G|---------111-222-11-------------------------------------------------
D|-222-444------------22-222-------222--------------------------------
A|---------------------------22222-----22222--------------------------
E|--------------------------------------------------------------------

E|--------------------------------------------------------------------
B|--------------------------------------------------------------------
G|---------111-222-11----------1---------1----------------------------
D|-222-444------------22-44444---22-4444---22-------------------------
A|--------------------------------------------------------------------
E|--------------------------------------------------------------------

E|--------------------------------------------------------------------
B|--------------------------------------------------------------------
G|---------111-222-11-------------------------------------------------
D|-222-444------------22-222-------222--------------------------------
A|---------------------------22222-----22222--------------------------
E|--------------------------------------------------------------------

E|--------------------------------------------------------------------
B|--------------------------------------------------------------------
G|---------111-222-11----------1---------1----------------------------
D|-222-444------------22-44444---22-4444---2-1-2~~~~~~----------------
A|--------------------------------------------------------------------
E|--------------------------------------------------------------------


-- Chorus --


End on E

Ditulis Oleh :

Ridwan Ahli Webs Anda sedang membaca artikel tentang Chord Gitar Blink 182 -give me a good reason di Redonewest, Sobat diperbolehkan mengcopas atau menyebar-luaskan artikel ini, tapi jangan lupa untuk meletakkan link Ahli Webs atau link dibawah sebagai sumbernya.
Description: Chord Gitar Blink 182 -give me a good reason Rating: 4.5 Reviewer: Ridwan AhliWebsCom ItemReviewed: Chord Gitar Blink 182 -give me a good reason
Posted by: Ahli Webs
Ahli Webs Updated at: 17.35

0 komentar

Posting Komentar

Silahkan Beri Komentar..!!