Jasa Desain Website Murah
Jasa buat web untuk bisnis online, web pribadi, web portal, atau web apa saja tersedia di Ahli Webs

Chord Gitar Simple Plan - Perfect Acoustic

simple plan-perfect acustic
Intro: D G D G (0:00-0:13)
e|-----------3--2-------------0--2--3--2-------|
G|--3--2--3--------3----3--2--------------3----|
B|--2-------------------2----------------------|
D|--0-------------------0----------------------|
A|---------------------------------------------|
E|---------------------------------------------|

(0:13-0:25)
e|--x--x--x--x--x--x--x--x--x-x-x- --------------|
G|--3--3--5--5--8--8--7--7--7/8\7- -10--8--7--3--|
B|--2--2--4--4--7--7--6--6--6/7\6- 3x -9---7--6--2--|
D|-------------------------------- --------------|
A|-------------------------------- --------------|
E|-------------------------------- --------------|

or

e|------------3-3-3-3--3-3-3----------------------|
G|--3-3-3-3---3-3-3-3--3-3-3----------------------|
B|--2-2-2-2---0-0-0-0--0-0-0----------------------|2x-u can play it this way
D|--0-0-0-0---0-0-0-0--0-0-0----------------------|way its pretty good
A|------------2-2-2-2--2-2-2----------------------|
E|------------3-3-3-3--3-3-3----------------------|

Verse: (0:25-0:49)
D
Hey dad look at me
G
Think back and talk to me
D G
Did I grow up according to plan?
D G
And do you think I'm wasting my time doing things I wanna do?
D G
But it hurts when you disapprove all along

(0:49-1:11)
Refrain:
e|-----0-------------------0--------0--------|
G|-----0----3--3--3--------0-----3--2--------|
B|-----0----0--2--2--------0-----0--2--------|
D|----2-----0--0--0-------2-----0---2--------|
A|---2-----2------0------2-----2----0--------|
E|--0-----3-------------0-----3--------------|

Em
And now I try hard to make it
G D
I just want to make you proud
D Em
I'm never gonna be good enough for you
G
I can't pretend that I'm alright
A
And you can't change me

(1:11-1:35)
Chorus:
e|-------------------------------------------------------|
B|-3----3-2-----2-3---3-3-2---3---3--2-----2-3--3--------|
G|-2----2-------2-----2-2-2---2---2--------2----2--------|
D|-0--------------------------0--------------------------|
A|-0--0-----0-2-----------------0------0-2---------------|
E|-------------------------------------------------------|

D
Cos we lost it all
A
Nothing lasts forever
G
I'm sorry
A
I can't be perfect
D
Now it's just too late and
A
We can't go back
G
I'm sorry
A
I can't be perfect

Intro(1:35-1:48)

Verse 2:(1:48-2:11)
(Do chords of 1st stanza)
I try not to think
About the pain I feel inside
Did you know you used to be my hero?
All the days you spend with me
Now seem so far away
And it feels like you don't care anymore

Refrain:(2:11-2:34)
e|-----0-------------------0--------0--------|
G|-----0----3--3--3--------0-----3--2--------|
B|-----0----0--2--2--------0-----0--2--------|
D|----2-----0--0--0-------2-----0---2--------|
A|---2-----2------0------2-----2----0--------|
E|--0-----3-------------0-----3--------------|

(Do chords of Refrain)
And now I try hard to make it
I just want to make you proud
I'm never gonna be good enough for you
I can't stand another fight
And nothing's alright

Repeat Chorus (2:34-2:58)

Bridge:(2:58-3:23)
Bm A G
Nothing's gonna change the things that you said
Bm A G
Nothing's gonna make this right again
Bm
Please don't turn your back
A
I can't believe it's hard
Em
Just to talk to you
G
But you don't understand

Intro(3:23-3:35)

Chorus 2:(3:35-4:35) Repeat 2x
e|------------------------------------------------|
G|------------------------------------------------|
B|--7-7-7-7---------4-4-4-4-----------------------|
D|--7-7-7-7-7-7-7-7-4-4-4-4-5-5-5-5---------------|
A|--5-5-5-5-7-7-7-7-2-2-2-2-5-5-5-5---------------|
E|----------5-5-5-5---------3-3-3-3---------------|

e|------------------------------------------------|
G|------------------------------------------------|
B|--7-7-7-7---------4-4-4-4-----------------------|
D|--7-7-7-7-7-7-7-7-4-4-4-4-5-5-5-5---------------|
A|--5-5-5-5-7-7-7-7-2-2-2-2-5-5-5-5---------------|
E|----------5-5-5-5---------3-3-3-3---------------|

---_~End~_---

Ditulis Oleh :

Ridwan Ahli Webs Anda sedang membaca artikel tentang Chord Gitar Simple Plan - Perfect Acoustic di Redonewest, Sobat diperbolehkan mengcopas atau menyebar-luaskan artikel ini, tapi jangan lupa untuk meletakkan link Ahli Webs atau link dibawah sebagai sumbernya.
Description: Chord Gitar Simple Plan - Perfect Acoustic Rating: 4.5 Reviewer: Ridwan AhliWebsCom ItemReviewed: Chord Gitar Simple Plan - Perfect Acoustic
Posted by: Ahli Webs
Ahli Webs Updated at: 17.12

0 komentar

Posting Komentar

Silahkan Beri Komentar..!!